It is currently Fri Apr 20, 2018 10:49 pm

All times are UTC [ DST ]




Forum locked This topic is locked, you cannot edit posts or make further replies.  [ 72 posts ]  Go to page Previous  1, 2, 3, 4, 5
Author Message
 Post subject: Re: Mithras Tabs
PostPosted: Mon Mar 17, 2008 5:57 pm 
Offline
Great Councillor
User avatar

Joined: Sun Jul 03, 2005 7:46 pm
Posts: 730
Location: Kernow
Quote:
The reason it's hard to pick up the guitars on 'Legions...' is mainly the stupid tempos and the 16th notes. Try panning to one side and listening to it, should help a bit to isolate the particular notes and chords


Awhile back I was listening to legions on my 5.1 surround & on the rear left speaker the guitars were pretty much 95% isolated so could pick out all the riffs alot better.

For me the other tab would be a toss-up of either transcendence, under the three shperes or the caller & the listener.

_________________
TO THE MOUNTAIN!


Top
 Profile  
 
 Post subject: Re: Mithras Tabs
PostPosted: Thu Apr 17, 2008 6:38 am 
Offline
The Wanderer

Joined: Mon Dec 24, 2007 1:27 am
Posts: 45
So Leon, how about those tabs?


Top
 Profile  
 
 Post subject: Re: Mithras Tabs
PostPosted: Thu Apr 17, 2008 12:23 pm 
Offline
Mithras Guitarist / Drummer
User avatar

Joined: Thu Mar 25, 2004 6:27 pm
Posts: 1533
Location: Exploring non-Euclidean geometries...
Unfortunately it's going to have to wait another few weeks, my guitar equipment isn't even set up atm and I'm sorting a few out to sell in the interim.

Tabs are ongoing however, Worlds...', 'Psyrens', 'Wrath Of God' are in progress

_________________
Image
my arts were thought so mighty
yet humbled
for who
could know
the mysteries
of life itself


Top
 Profile  
 
 Post subject: Re: Mithras Tabs
PostPosted: Tue May 27, 2008 10:21 am 
Offline
The Wanderer

Joined: Mon Dec 24, 2007 1:27 am
Posts: 45
bump


Top
 Profile  
 
 Post subject: Re: Mithras Tabs
PostPosted: Fri Jul 18, 2008 12:57 am 
Offline
Mithras Guitarist / Drummer
User avatar

Joined: Thu Mar 25, 2004 6:27 pm
Posts: 1533
Location: Exploring non-Euclidean geometries...
http://www.mithras.org.uk/phpBB3/viewtopic.php?f=5&t=1045

_________________
Image
my arts were thought so mighty
yet humbled
for who
could know
the mysteries
of life itself


Top
 Profile  
 
 Post subject: Re: Mithras Tabs
PostPosted: Fri Jul 18, 2008 2:31 am 
Offline
The Wanderer

Joined: Fri May 04, 2007 10:12 pm
Posts: 7
Location: N. Yorkshire, UK.
I think this is my first post here. But i'll make it a useful one.

http://www.megaupload.com/?d=O4FD0N7R

To Fall From the Heavens Up until the solo. Not much, maybe not even correct, but I figured someone would find it handy.

I'll put it into ASCII form here too.

Code:
                           To Fall From the Heavens                             


                                                                         Mithras
Track 1



      PM PM           PM      PM      PM    PM PM           PM      PM      PM 
      E  E  Q    S  S E  S  S E  S  S E     E  E  Q    S  S E  S  S E  S  S E   
D#||-------------------------------------|-------------------------------------|
A#||-------------------------------------|-------------------------------------|
F#||-------------------------------------|-------------------------------------|
C#||--3--5--6----------------------------|--3--5--6----------------------------|
G#||--3--5--6----------------------------|--3--5--6----------------------------|
D#||-------------------------------------|-------------------------------------|
A#||-------------3s-4-0--3s-4-0--3s-4-0--|-------------3s-4-0--3s-4-0--3s-4-0--|


  PM PM           PM      PM      PM    PM PM           PM      PM      PM 
  E  E  Q    S  S E  S  S E  S  S E     E  E  Q    S  S E  S  S E  S  S E   
-------------------------------------|-------------------------------------|
-------------------------------------|-------------------------------------|
-------------------------------------|-------------------------------------|
--3--5--6----------------------------|--3--5--6----------------------------|
--3--5--6----------------------------|--3--5--6----------------------------|
-------------------------------------|-------------------------------------|
-------------3s-4-0--3s-4-0--3s-4-0--|-------------3s-4-0--3s-4-0--3s-4-0--|


  PM PM           PM      PM      PM    PM PM           PM      PM      PM 
  E  E  Q    S  S E  S  S E  S  S E     E  E  Q    S  S E  S  S E  S  S E   
-------------------------------------|-------------------------------------|
-------------------------------------|-------------------------------------|
-------------------------------------|-------------------------------------|
--3--5--6----------------------------|--3--5--6----------------------------|
--3--5--6----------------------------|--3--5--6----------------------------|
-------------------------------------|-------------------------------------|
-------------3s-4-0--3s-4-0--3s-4-0--|-------------3s-4-0--3s-4-0--3s-4-0--|


  PM PM           PM      PM      PM    PM PM           PM      PM      PM 
  E  E  Q    S  S E  S  S E  S  S E     E  E  Q    S  S E  S  S E  S  S E   
-------------------------------------|-------------------------------------|
-------------------------------------|-------------------------------------|
-------------------------------------|-------------------------------------|
--3--5--6----------------------------|--3--5--6----------------------------|
--3--5--6----------------------------|--3--5--6----------------------------|
-------------------------------------|-------------------------------------|
-------------3s-4-0--3s-4-0--3s-4-0--|-------------3s-4-0--3s-4-0--3s-4-0--|


  PM PM          PM         PM PM          PM PM PM     
  E  E  Q    E.  S  Q       E  E  Q    E.  S  S  S  E   
-------------------------|-----------------------------|
-------------------------|-----------------------------|
-------------------------|-----------------------------|
--3--5--6----8---6--5----|--3--5--6----8---5--8--6--5--|
--3--5--6----8---6--5----|--3--5--6----8---5--8--6--5--|
-------------------------|-----------------------------|
-------------------------|-----------------------------|


  PM PM          PM         PM PM          PM PM PM     
  E  E  Q    E.  S  Q       E  E  Q    E.  S  S  S  E   
-------------------------|-----------------------------|
-------------------------|-----------------------------|
-------------------------|-----------------------------|
--3--5--6----8---6--5----|--3--5--6----8---5--8--6--5--|
--3--5--6----8---6--5----|--3--5--6----8---5--8--6--5--|
-------------------------|-----------------------------|
-------------------------|-----------------------------|


  PM PM          PM         PM PM          PM PM PM     
  E  E  Q    E.  S  Q       E  E  Q    E.  S  S  S  E   
-------------------------|-----------------------------|
-------------------------|-----------------------------|
-------------------------|-----------------------------|
--3--5--6----8---6--5----|--3--5--6----8---5--8--6--5--|
--3--5--6----8---6--5----|--3--5--6----8---5--8--6--5--|
-------------------------|-----------------------------|
-------------------------|-----------------------------|


  PM PM          PM         PM PM          PM PM PM         
  E  E  Q    E.  S  Q       E  E  Q    E.  S  S  S  Q.     
-------------------------|---------------------------------|
-------------------------|---------------------------------|
-------------------------|---------------------------------|
--3--5--6----8---6--5----|--3--5--6----8---5--8--6--5------|
--3--5--6----8---6--5----|--3--5--6----8---5--8--6--5------|
-------------------------|---------------------------------|
-------------------------|---------------------------------|


       PM      PM      PM PM PM       
  S  S E  S  S E  S  S E  E  E  Q     
-------------------------------------|
-------------------------------------|
-------------------------------------|
--------------------------3--5--6----|
--------------------------3--5--6----|
-------------------------------------|
--3s-4-0--3s-4-0--3s-4-0-------------|


       PM      PM      PM PM PM           
  S  S E  S  S E  S  S E  E  E  Q    Q     
------------------------------------------|
------------------------------------------|
------------------------------------------|
--------------------------3--5--6----8----|
--------------------------3--5--6----8----|
------------------------------------------|
--3s-4-0--3s-4-0--3s-4-0------------------|


       PM      PM      PM PM PM       
  S  S E  S  S E  S  S E  E  E  Q     
-------------------------------------|
-------------------------------------|
-------------------------------------|
--------------------------3--5--6----|
--------------------------3--5--6----|
-------------------------------------|
--3s-4-0--3s-4-0--3s-4-0-------------|


       PM      PM      PM PM PM           
  S  S E  S  S E  S  S E  E  E  Q    Q     
------------------------------------------|
------------------------------------------|
------------------------------------------|
--------------------------3--5--6----8----|
--------------------------3--5--6----8----|
------------------------------------------|
--3s-4-0--3s-4-0--3s-4-0------------------|


       PM      PM      PM PM PM       
  S  S E  S  S E  S  S E  E  E  Q     
-------------------------------------|
-------------------------------------|
-------------------------------------|
--------------------------3--5--6----|
--------------------------3--5--6----|
-------------------------------------|
--3s-4-0--3s-4-0--3s-4-0-------------|


       PM      PM      PM PM PM           
  S  S E  S  S E  S  S E  E  E  Q    Q     
------------------------------------------|
------------------------------------------|
------------------------------------------|
--------------------------3--5--6----8----|
--------------------------3--5--6----8----|
------------------------------------------|
--3s-4-0--3s-4-0--3s-4-0------------------|


       PM      PM      PM PM PM              PM      PM      PM 
  S  S E  S  S E  S  S E  E  E  Q       S  S E  S  S E  S  S E   
-------------------------------------|--------------------------|
-------------------------------------|--------------------------|
-------------------------------------|--------------------------|
--------------------------3--5--6----|--------------------------|
--------------------------3--5--6----|--------------------------|
-------------------------------------|--------------------------|
--3s-4-0--3s-4-0--3s-4-0-------------|--3s-4-0--3s-4-0--3s-4-0--|


  PM PM          PM         PM PM          PM PM PM     
  E  E  Q    E.  S  Q       E  E  Q    E.  S  S  S  E   
-------------------------|-----------------------------|
-------------------------|-----------------------------|
-------------------------|-----------------------------|
--3--5--6----8---6--5----|--3--5--6----8---5--8--6--5--|
--3--5--6----8---6--5----|--3--5--6----8---5--8--6--5--|
-------------------------|-----------------------------|
-------------------------|-----------------------------|


  PM PM          PM         PM PM          PM PM PM     
  E  E  Q    E.  S  Q       E  E  Q    E.  S  S  S  E   
-------------------------|-----------------------------|
-------------------------|-----------------------------|
-------------------------|-----------------------------|
--3--5--6----8---6--5----|--3--5--6----8---5--8--6--5--|
--3--5--6----8---6--5----|--3--5--6----8---5--8--6--5--|
-------------------------|-----------------------------|
-------------------------|-----------------------------|


  PM PM          PM         PM PM          PM PM PM     
  E  E  Q    E.  S  Q       E  E  Q    E.  S  S  S  E   
-------------------------|-----------------------------|
-------------------------|-----------------------------|
-------------------------|-----------------------------|
--3--5--6----8---6--5----|--3--5--6----8---5--8--6--5--|
--3--5--6----8---6--5----|--3--5--6----8---5--8--6--5--|
-------------------------|-----------------------------|
-------------------------|-----------------------------|


  PM PM          PM         PM PM          PM PM PM     
  E  E  Q    E.  S  Q       E  E  Q    E.  S  S  S  E   
-------------------------|-----------------------------|
-------------------------|-----------------------------|
-------------------------|-----------------------------|
--3--5--6----8---6--5----|--3--5--6----8---5--8--6--5--|
--3--5--6----8---6--5----|--3--5--6----8---5--8--6--5--|
-------------------------|-----------------------------|
-------------------------|-----------------------------|


       PM      PM      PM PM PM       
  S  S E  S  S E  S  S E  E  E  Q     
-------------------------------------|
-------------------------------------|
-------------------------------------|
--------------------------3--5--6----|
--------------------------3--5--6----|
-------------------------------------|
--3s-4-0--3s-4-0--3s-4-0-------------|


       PM      PM      PM PM PM           
  S  S E  S  S E  S  S E  E  E  Q    Q     
------------------------------------------|
------------------------------------------|
------------------------------------------|
--------------------------3--5--6----8----|
--------------------------3--5--6----8----|
------------------------------------------|
--3s-4-0--3s-4-0--3s-4-0------------------|


       PM      PM      PM PM PM       
  S  S E  S  S E  S  S E  E  E  Q     
-------------------------------------|
-------------------------------------|
-------------------------------------|
--------------------------3--5--6----|
--------------------------3--5--6----|
-------------------------------------|
--3s-4-0--3s-4-0--3s-4-0-------------|


       PM      PM      PM PM PM           
  S  S E  S  S E  S  S E  E  E  Q    Q     
------------------------------------------|
------------------------------------------|
------------------------------------------|
--------------------------3--5--6----8----|
--------------------------3--5--6----8----|
------------------------------------------|
--3s-4-0--3s-4-0--3s-4-0------------------|


       PM      PM      PM PM PM       
  S  S E  S  S E  S  S E  E  E  Q     
-------------------------------------|
-------------------------------------|
-------------------------------------|
--------------------------3--5--6----|
--------------------------3--5--6----|
-------------------------------------|
--3s-4-0--3s-4-0--3s-4-0-------------|


       PM      PM      PM PM PM           
  S  S E  S  S E  S  S E  E  E  Q    Q     
------------------------------------------|
------------------------------------------|
------------------------------------------|
--------------------------3--5--6----8----|
--------------------------3--5--6----8----|
------------------------------------------|
--3s-4-0--3s-4-0--3s-4-0------------------|


       PM      PM      PM PM PM       
  S  S E  S  S E  S  S E  E  E  Q     
-------------------------------------|
-------------------------------------|
-------------------------------------|
--------------------------3--5--6----|
--------------------------3--5--6----|
-------------------------------------|
--3s-4-0--3s-4-0--3s-4-0-------------|


       PM      PM      PM PM PM             
  S  S E  S  S E  S  S E  E  E  Q    Q     
------------------------------------------||
------------------------------------------||
------------------------------------------||
--------------------------3--5--6----8----||
--------------------------3--5--6----8----||
------------------------------------------||
--3s-4-0--3s-4-0--3s-4-0------------------||


Top
 Profile  
 
 Post subject: Re: Mithras Tabs
PostPosted: Sat Aug 02, 2008 10:07 am 
Offline
The Wanderer

Joined: Fri Aug 01, 2008 7:11 pm
Posts: 1
Thanks for that, its inspired me to attempt the whole thing in powertab. Can't promise I'll manage all the solos.


Top
 Profile  
 
 Post subject: Re: Mithras Tabs
PostPosted: Sat Apr 04, 2009 12:04 pm 
Offline
Lord Of The Condemned
User avatar

Joined: Mon Jan 14, 2008 3:22 am
Posts: 187
Location: Where dying suns descend
Leon wrote:
Any particular requests?


Hell yeah man, They came and you were silent... Most epic shit ever :wink:

_________________
Faith in the heavens has shattered
Broken pieces fall from the sky
Your god is the epitome of my doings
No one is spared from the funeral inception
God forbid
God forbidden
Image


Top
 Profile  
 
 Post subject: Re: Mithras Tabs
PostPosted: Fri Jul 10, 2009 7:07 am 
Offline
Lord Of The Condemned
User avatar

Joined: Mon Jan 14, 2008 3:22 am
Posts: 187
Location: Where dying suns descend
What is The senseless's Tuning anyone? I want to figure out vaction But not sure if the tuning is A#?

_________________
Faith in the heavens has shattered
Broken pieces fall from the sky
Your god is the epitome of my doings
No one is spared from the funeral inception
God forbid
God forbidden
Image


Top
 Profile  
 
 Post subject: Re: Mithras Tabs
PostPosted: Fri Jul 10, 2009 2:11 pm 
Offline
Mithras Guitarist / Drummer
User avatar

Joined: Thu Mar 25, 2004 6:27 pm
Posts: 1533
Location: Exploring non-Euclidean geometries...
A standard on a 6 string

_________________
Image
my arts were thought so mighty
yet humbled
for who
could know
the mysteries
of life itself


Top
 Profile  
 
 Post subject: Re: Mithras Tabs
PostPosted: Fri Jul 17, 2009 8:46 pm 
Offline
Great Councillor
User avatar

Joined: Sun Jul 03, 2005 7:46 pm
Posts: 730
Location: Kernow
Sorath wrote:
What is The senseless's Tuning anyone? I want to figure out vaction But not sure if the tuning is A#?


If you search there's some guy doing some pretty good senseless guitar covers on youtube.

_________________
TO THE MOUNTAIN!


Top
 Profile  
 
 Post subject: Re: Mithras Tabs
PostPosted: Fri Jul 17, 2009 9:31 pm 
Offline
Lord Of The Condemned
User avatar

Joined: Mon Jan 14, 2008 3:22 am
Posts: 187
Location: Where dying suns descend
Nauthiz wrote:
Sorath wrote:
What is The senseless's Tuning anyone? I want to figure out vaction But not sure if the tuning is A#?


If you search there's some guy doing some pretty good senseless guitar covers on youtube.

But, why speculate when you can get it directly from the source?Yeah I seen Him do Some decent stuff

_________________
Faith in the heavens has shattered
Broken pieces fall from the sky
Your god is the epitome of my doings
No one is spared from the funeral inception
God forbid
God forbidden
Image


Top
 Profile  
 
Display posts from previous:  Sort by  
Forum locked This topic is locked, you cannot edit posts or make further replies.  [ 72 posts ]  Go to page Previous  1, 2, 3, 4, 5

All times are UTC [ DST ]


Who is online

Users browsing this forum: No registered users and 1 guest


You cannot post new topics in this forum
You cannot reply to topics in this forum
You cannot edit your posts in this forum
You cannot delete your posts in this forum
You cannot post attachments in this forum

Search for:
Jump to:  
cron
Powered by phpBB © 2000, 2002, 2005, 2007 phpBB Group