Mithras
http://www.mithras.org.uk/phpBB3/

Obscura example of insane sweeps
http://www.mithras.org.uk/phpBB3/viewtopic.php?f=5&t=1331
Page 1 of 1

Author:  darkreignofset [ Sat Mar 13, 2010 12:31 pm ]
Post subject:  Obscura example of insane sweeps

Code:
--11------------12----|--14--------12----11----|---9~----------------|
--12------------14----|--15--------14----12----|--12~----------------|
----------------------|------------------------|---------------------|
----------------------|------------------------|---------------------|
----------------------|------------------------|---------------------|
----------------------|------------------------|---------------------|


                        |---3--|   |----3---|   |----3---|    |----3----|   
   W                    E   E  E   E    E   E   E   E    E    E    E    E   
---L----------------|------------------------------10s--11h--15p--11h--15h--|
---L----------------|--------------------------11---------------------------|
--------------------|----------------------12-------------------------------|
--------------------|----------8--12s--13-----------------------------------|
--------------------|------10-----------------------------------------------|
--------------------|--11---------------------------------------------------|


   T             T                                       
   |----3----|   |----3----|    |----3---|   |----3---|   
   E    E    E   E    E    E    E   E    E   E    E   E   
--18p--15p--11-------------------------------------------|
---------------------------------------------------------|
----------------15h--19p--15p--12------------------------|
-----------------------------------13p--12---------------|
--------------------------------------------13s--10------|
-----------------------------------------------------11--|


                         T                           T   
   |----3---|  |----3----|   |----3----|   |----3----|   
   E   E    E  E    E    E   E    E    E   E    E    E   
--------------------------------------------------------|
--------------------------------------------------------|
------------------------------------------11h--14h--18--|
----------------------------12p--11h--12----------------|
---------------9h--12h--16------------------------------|
--10p--9h--10-------------------------------------------|


                           T                   T             
   |----3----|   |----3----|    |----3----|    |----3----|   
   E    E    E   E    E    E    E    E    E    E    E    E   
----------------14h--19h--21p--17p--14h--17h--20p--17p--14--|
--15p--14h--15----------------------------------------------|
------------------------------------------------------------|
------------------------------------------------------------|
------------------------------------------------------------|
------------------------------------------------------------|


   T              T             T             T           
   |----3----|    |----3---|    |----3---|    |----3---|   
   E    E    E    E    E   E    E    E   E    E    E   E   
--24p--19p--15h--19p--15----------------------------------|
--------------------------17h--20p--17--------------------|
----------------------------------------16h--21p--16------|
------------------------------------------------------17--|
----------------------------------------------------------|
----------------------------------------------------------|


   T             T              T              T             
   |----3---|    |----3----|    |----3----|    |----3----|   
   E    E   E    E    E    E    E    E    E    E    E    E   
------------------------------------------------------------|
------------------------------------------------------------|
------------------------------------------------------------|
--21p--17---------------------------------------------------|
-----------19h--22p--19p--14h--19p--14h--19h--22p--19p--14--|
------------------------------------------------------------|


                             T              T           
   |---3---|   |----3---|    |----3----|    |----3---|   
   E   E   E   E   E    E    E    E    E    E    E   E   
------------------14h--18h--21p--18p--14h--18p--14------|
--------------16------------------------------------16--|
----------15--------------------------------------------|
------16------------------------------------------------|
--18----------------------------------------------------|
--------------------------------------------------------|


   T             T             T             T             
   |----3---|    |----3---|    |----3---|    |----3----|   
   E    E   E    E    E   E    E    E   E    E    E    E   
----------------------------------------------------------|
--19s--16-------------------------------------------------|
-----------15h--20p--15-----------------------------------|
-------------------------16h--20p--16---------------------|
---------------------------------------18h--21p--18p--13--|
----------------------------------------------------------|


                             T                           
   |---3---|   |----3---|    |----3----|   |----3----|   
   E   E   E   E   E    E    E    E    E   E    E    E   
------------------15h--18h--22p--18p--15----------------|
--------------16--------------------------16p--15h--16--|
----------15--------------------------------------------|
------17------------------------------------------------|
--18----------------------------------------------------|
--------------------------------------------------------|


   T                           T                           
   |----3----|   |----3----|   |----3----|   |----3----|   
   E    E    E   E    E    E   E    E    E   E    E    E   
----------------------------------------------------------|
----------------------------------------------------------|
--19p--15p--12--------------------------------------------|
----------------13p--12h--13------------------------------|
------------------------------17p--13p--10----------------|
--------------------------------------------11p--10h--11--|

Short little part of the main solo of anticosmic overload... freakin brootal
Theres a really kewl sounding sweep at the beginning of universe momentum thats insane. followed with some broque acoustic stuff

Page 1 of 1 All times are UTC [ DST ]
Powered by phpBB © 2000, 2002, 2005, 2007 phpBB Group
http://www.phpbb.com/