Mithras
http://www.mithras.org.uk/phpBB3/

'Worlds Beyond The Veil' TABLATURE
http://www.mithras.org.uk/phpBB3/viewtopic.php?f=5&t=1045
Page 4 of 5

Author:  darkreignofset [ Sat Nov 28, 2009 6:21 am ]
Post subject:  Re: 'Worlds Beyond The Veil' TABLATURE

I used the exsisting GP pro file, just added drums and bass. would guys mind offering corrections? I added the midi file for you too leon so you can see how I screwed up your drums Ha,ha Lol!!!!

http://rapidshare.com/files/313235031/M ... TV.rar.htm

for some reason it won't let me upload to mediafire or megaupload so i may have to repost links :roll:

Author:  Leon [ Sun Nov 29, 2009 4:26 pm ]
Post subject:  Re: 'Worlds Beyond The Veil' TABLATURE

The tab for Wrath is finished (and has been for a while now). I did say it would go out with a related "announcement", however it's not quite time for that...

As obvious as it is I think it's worth pointing out that making sarcastic comments isn't helpful, if anything it lessens the likelyhood of there being more tab. I can't check out your file as I'm not a premium rapidshare member unfortunately.

I saw on the Orbeth forum someone had asked a few questions about Mithras tab; bear in mind Ben didn't play rhythm on any of the records (he did a few leads on the 'Forever Advancing..... Legions' record and some extra keys "Arena Sands" (anyone who has bought the cd as opposed to downloading it can see this in the inlay).

Tabs are definitely a cool thing to have for the people who are into Mithras and play guitar but as I already said, seeing as no one has even attemped to do a public version of 'Worlds...' (from the tab I already made) makes doing more tab a low priority compared to other stuff I enjoy more which will actually generate proper interest in Mithras.

Still, I know it can be disappointing when something doesn't turn up on schedule if you're waiting for it, so to be categoric; new tab will appear as/when/if I fancy doing it :mrgreen:

For the last two weeks I've been pretty busy musically; finishing my parts to the new The Senseless record 'The Floating World' (which sounds amazing), editing the Mithras videos for YouTube from our last tour, sorting The Sands Of Time final mixes, working on new material...

Author:  darkreignofset [ Sun Nov 29, 2009 10:09 pm ]
Post subject:  Re: 'Worlds Beyond The Veil' TABLATURE

No worries, I know your very busy with, Mithras, releases, setting up shows, zero tolerance,the senseless and who knows what eles in your personal endevors. I asked ben purly because he hangs with you guys all the time and it would be impossible not learn any of those riffs. As for the sarcasim, thats me just be being funny and not an impatient dick. So now you know. :wink:

Author:  leeless [ Fri Dec 04, 2009 12:09 am ]
Post subject:  Re: 'Worlds Beyond The Veil' TABLATURE

Leon wrote:
Tabs are definitely a cool thing to have for the people who are into Mithras and play guitar but as I already said, seeing as no one has even attemped to do a public version of 'Worlds...'


I had considered it before I got burgaled. But you already know near enough what it will sound like anyway. Still, I might give it a shot. If anything, it would be a good way of showing off my new amp and cab :wink:

And when I get tired of banging my head against brick walls, I continue to practice those 1st fret slide pinched harmonics. Then, once I give up and say IMPOSSIBLE, I cheat and start at the 10th fret and bend up around the 15th (IIRC).

Might make a medely of Mithras riffs I've worked out/butchered by ear too.

Author:  darkreignofset [ Thu Dec 17, 2009 6:56 pm ]
Post subject:  Re: 'Worlds Beyond The Veil' TABLATURE

Mithras - The Twisted Tower - Live at the GRV, Edinburgh 2009
is that the 6 string orange charvel tuned to D# on that song?

Author:  Toozey [ Thu Dec 17, 2009 9:18 pm ]
Post subject:  Re: 'Worlds Beyond The Veil' TABLATURE

Yeah, Twisted Tower is tuned to Db, Ab, Db, Gb, Bb, Eb.

Author:  Leon [ Thu Dec 17, 2009 10:51 pm ]
Post subject:  Re: 'Worlds Beyond The Veil' TABLATURE

Sorath wrote:
Mithras - The Twisted Tower - Live at the GRV, Edinburgh 2009
is that the 6 string orange charvel tuned to D# on that song?


Ibanez RG550, the Charvel is on holiday for a bit as it needs loads of repairs.

Author:  darkreignofset [ Fri Dec 18, 2009 9:56 am ]
Post subject:  Re: 'Worlds Beyond The Veil' TABLATURE

Toozey wrote:
Yeah, Twisted Tower is tuned to Db, Ab, Db, Gb, Bb, Eb.

Awesome... meant to say drop C# lol

Author:  Madsakre [ Thu Dec 24, 2009 1:00 pm ]
Post subject:  Re: 'Worlds Beyond The Veil' TABLATURE

A little contribution from here:
7 tuned to Bb/A#
a knife tip of delay, a spoon of chorus/flange, an ounce of reverb
Under three spheres intro-
1
Eb ------------------------------------------------
Bb -12h13p12h13-----------------------------------
Gb ----------------11h12p11h12--------------------
Db -------------------------------10h12p10h12--10~
Ab ------------------------------------------------
Eb -------------------------------------------------
Bb -------------------------------------------------
2
Eb ----------------------------------------------10h12p10h12--
Bb -12h13p12h13-----------------10h12p10h12------------------
Gb ----------------11h12p11h12--------------------------------
Db -------------------------------------------------------------
Ab -------------------------------------------------------------
Eb -------------------------------------------------------------
Bb -------------------------------------------------------------

Variation(im unsure on this one)
Repeat part 1
variation part 2:
Eb -------------------------------------------------------------
Bb -12h13p12h13-------------------------------10p12h10p12----
Gb ----------------11h12p11h12--12h14p12h14------------------
Db -------------------------------------------------------------
Ab -------------------------------------------------------------
Eb -------------------------------------------------------------
Bb -------------------------------------------------------------
Repeat :)

Riff 1:

Eb ---------------------------------------------------------------------
Bb ---------------------------------------------------------------------
Gb ---------------------------------------------------------------------
Db -7777-------------------------------------7777----------------------
Ab -------9999-------------------------------------9999----------------
Eb -------------7777--------------2222-3333------------7777-----------
Bb -------------------7777--0011----------------------------7777-0033
Continued:
(Eb-3333-5555)
^^

Eb ---------------------------------------------------------------------
Bb ---------------------------------------------------------------------
Gb ---------------------------------------------------------------------
Db ----------------------------------------------------4-5-4------------
Ab ---------------------------------------------5-7-8--------3---------
Eb ---2-----3-2---------------2-----3-2--5-7-8------------------------
Bb -0-0---0-1-0---1-0--3ph-0-0---0-1-0-------------------------------

Author:  darkreignofset [ Fri Dec 25, 2009 2:20 am ]
Post subject:  Re: 'Worlds Beyond The Veil' TABLATURE

Pretty close to what i had on the intro :mrgreen:

Author:  Madsakre [ Fri Dec 25, 2009 1:24 pm ]
Post subject:  Re: 'Worlds Beyond The Veil' TABLATURE

Yeah dude, i saw the other tabs, and just started playing and correcting :)
And merry x-mas everyone :)

Author:  Leon [ Fri Dec 25, 2009 10:20 pm ]
Post subject:  Re: 'Worlds Beyond The Veil' TABLATURE

happy yule! First thing which is incorrect is the tuning (i tune it like a 6 with an extra high eb). otherwise it looks quite close. The real tab will reveal all!

Author:  Madsakre [ Fri Dec 25, 2009 11:23 pm ]
Post subject:  Re: 'Worlds Beyond The Veil' TABLATURE

Gl├Ždelig jul :P And in fact, its my birthday in about half an hour.

Fun thing that you tune your guitar that way. Whats the reason for that? The conversion from 6 to 7 in ancient times eh? :)

So you tune to?
Eb
Bb
F
Db
Ab
Eb
Bb

Author:  Leon [ Sat Dec 26, 2009 8:46 pm ]
Post subject:  Re: 'Worlds Beyond The Veil' TABLATURE

the tunings are both mentioned in the FAQ on this forum. The reason is i started with a 6 string tuned to Bb, then when i got a 7 didnt want to have to change all the leads and riffs so kept it like a low tuned 6 with an extra top Eb. It's quite easy to understand

Author:  Madsakre [ Mon Dec 28, 2009 5:24 pm ]
Post subject:  Re: 'Worlds Beyond The Veil' TABLATURE

Leon wrote:
the tunings are both mentioned in the FAQ on this forum. The reason is i started with a 6 string tuned to Bb, then when i got a 7 didnt want to have to change all the leads and riffs so kept it like a low tuned 6 with an extra top Eb. It's quite easy to understand


Yeah i saw that after i posted, but i was just too lazy to go in and edit it :P
And, yes its easy to understand.

Page 4 of 5 All times are UTC [ DST ]
Powered by phpBB © 2000, 2002, 2005, 2007 phpBB Group
http://www.phpbb.com/