It is currently Wed Aug 22, 2018 5:01 am

All times are UTC [ DST ]




Forum locked This topic is locked, you cannot edit posts or make further replies.  [ 62 posts ]  Go to page Previous  1, 2, 3, 4, 5  Next
Author Message
 Post subject: Re: THE TAB HAS LANDED PT1 - 'Worlds Beyond The Veil'
PostPosted: Sat Jul 19, 2008 1:42 pm 
Offline
The Wanderer

Joined: Fri May 04, 2007 10:12 pm
Posts: 7
Location: N. Yorkshire, UK.
Right-o, i'll get onto those. Danke. I'll have to have a closer gander at the riff before the drum break. It's just that when I looked at your tab for it it didn't sound like a carbon copy of the similar riff that was played before it as you'd instructed.

Trial and error though, I suppose.


Top
 Profile  
 
 Post subject: Re: THE TAB HAS LANDED PT1 - 'Worlds Beyond The Veil'
PostPosted: Sat Jul 19, 2008 2:54 pm 
Offline
Mithras Vocalist / Bassist
User avatar

Joined: Thu May 20, 2004 12:04 am
Posts: 331
Location: Rugby
Worlds Beyond the Veil, the computer game... lol! The image of dodgy sprites wobbling around, hilarious!

_________________
What fate has befallen me!


Top
 Profile  
 
 Post subject: Re: THE TAB HAS LANDED PT1 - 'Worlds Beyond The Veil'
PostPosted: Sat Jul 19, 2008 9:43 pm 
Offline
Great Councillor

Joined: Fri Mar 26, 2004 10:40 am
Posts: 540
Evoken wrote:
I can string skip pinch harmonics about as well as a quadriplegic can swim.


Ditto here. I'm finding I'm making more progress matching a poorly played harmonic to comfortably picked 32's rather than concentrating on playing the harmonics well and then stumbling onto the 32's.

_________________
http://www.kingpenda.com/


Top
 Profile  
 
 Post subject: Re: THE TAB HAS LANDED PT1 - 'Worlds Beyond The Veil'
PostPosted: Tue Jan 06, 2009 11:16 pm 
Offline
Forum Admin
User avatar

Joined: Thu Mar 25, 2004 12:32 am
Posts: 643
Location: North East, England
Just learning this, once that slide harmonic is perfected I'll hopefully get a youtube video up!


Top
 Profile  
 
 Post subject: Re: THE TAB HAS LANDED PT1 - 'Worlds Beyond The Veil'
PostPosted: Wed Jan 07, 2009 1:44 am 
Offline
Mithras Guitarist / Drummer
User avatar

Joined: Thu Mar 25, 2004 6:27 pm
Posts: 1533
Location: Exploring non-Euclidean geometries...
Great! A video would be handy, perhaps in the future I should do one ;)

_________________
Image
my arts were thought so mighty
yet humbled
for who
could know
the mysteries
of life itself


Top
 Profile  
 
 Post subject: Re: THE TAB HAS LANDED PT1 - 'Worlds Beyond The Veil'
PostPosted: Thu Jan 15, 2009 7:21 pm 
Offline
Great Councillor
User avatar

Joined: Sun Jul 03, 2005 7:46 pm
Posts: 730
Location: Kernow
That would be awsome Leon :wink:

Looking forward to seeing your vid too Tooze

_________________
TO THE MOUNTAIN!


Top
 Profile  
 
 Post subject: Re: THE TAB HAS LANDED PT1 - 'Worlds Beyond The Veil'
PostPosted: Mon Jul 13, 2009 11:46 pm 
Offline
Lord Of The Condemned
User avatar

Joined: Mon Jan 14, 2008 3:22 am
Posts: 187
Location: Where dying suns descend
THE TAB HAS LANDED PT2 - 'Worlds Beyond The Veil' ? :mrgreen:

_________________
Faith in the heavens has shattered
Broken pieces fall from the sky
Your god is the epitome of my doings
No one is spared from the funeral inception
God forbid
God forbidden
Image


Top
 Profile  
 
 Post subject: Re: THE TAB HAS LANDED PT1 - 'Worlds Beyond The Veil'
PostPosted: Tue Jul 14, 2009 12:37 am 
Offline
Mithras Guitarist / Drummer
User avatar

Joined: Thu Mar 25, 2004 6:27 pm
Posts: 1533
Location: Exploring non-Euclidean geometries...
Do you mean you want some more tab or for me to tab worlds again ;)

_________________
Image
my arts were thought so mighty
yet humbled
for who
could know
the mysteries
of life itself


Top
 Profile  
 
 Post subject: Re: THE TAB HAS LANDED PT1 - 'Worlds Beyond The Veil'
PostPosted: Tue Jul 14, 2009 4:26 am 
Offline
Lord Of The Condemned
User avatar

Joined: Mon Jan 14, 2008 3:22 am
Posts: 187
Location: Where dying suns descend
Leon wrote:
Do you mean you want some more tab or for me to tab worlds again ;)

More Please!! :mrgreen:
So... They Came and you were silent is played in low to high: Db,Ab,Db,Gb,Bb,Eb?

_________________
Faith in the heavens has shattered
Broken pieces fall from the sky
Your god is the epitome of my doings
No one is spared from the funeral inception
God forbid
God forbidden
Image


Top
 Profile  
 
 Post subject: Re: THE TAB HAS LANDED PT1 - 'Worlds Beyond The Veil'
PostPosted: Tue Jul 14, 2009 2:32 pm 
Offline
Mithras Guitarist / Drummer
User avatar

Joined: Thu Mar 25, 2004 6:27 pm
Posts: 1533
Location: Exploring non-Euclidean geometries...
Yeah They Came... is in drop Db or drop C# depending on how you look at it :D

That's a pretty simple track really, but just fast in places. The end section is tapped and quite hard to get exactly right, you have to have the exact delay time so the riff layers.

I'll do some more tab(s) when I'm back from my summer holiday, Under The Three Spheres and Wrath Of God so then there's one song from each record.

If you get stuck with a particular riff post on here and i'll make a bit of tab for you.

_________________
Image
my arts were thought so mighty
yet humbled
for who
could know
the mysteries
of life itself


Top
 Profile  
 
 Post subject: Re: THE TAB HAS LANDED PT1 - 'Worlds Beyond The Veil'
PostPosted: Wed Jul 15, 2009 12:16 am 
Offline
Lord Of The Condemned
User avatar

Joined: Mon Jan 14, 2008 3:22 am
Posts: 187
Location: Where dying suns descend
Leon wrote:
Yeah They Came... is in drop Db or drop C# depending on how you look at it :D

That's a pretty simple track really, but just fast in places. The end section is tapped and quite hard to get exactly right, you have to have the exact delay time so the riff layers.

I'll do some more tab(s) when I'm back from my summer holiday, Under The Three Spheres and Wrath Of God so then there's one song from each record.

If you get stuck with a particular riff post on here and i'll make a bit of tab for you.

Cool, I think I attempted a bit of under three spheres, Would you mind giving it a good look? :mrgreen:

_________________
Faith in the heavens has shattered
Broken pieces fall from the sky
Your god is the epitome of my doings
No one is spared from the funeral inception
God forbid
God forbidden
Image


Top
 Profile  
 
 Post subject: Re: THE TAB HAS LANDED PT1 - 'Worlds Beyond The Veil'
PostPosted: Wed Jul 15, 2009 12:21 am 
Offline
Lord Of The Condemned
User avatar

Joined: Mon Jan 14, 2008 3:22 am
Posts: 187
Location: Where dying suns descend
Code:
                             Under The Three Spheres                             


                                                                         Mithras
Leon Rhythm Guitar #1



      W                   H        Q    Q       H        Q    Q     
A#||-------------------|---------------------|---------------------|
F#||-------------------|---------------------|---------------------|
C#||-------------------|---------------------|---------------------|
G#||-------------------|---------------------|---------------------|
D#||-------------------|----------------3----|----------------3----|
A#||-------------------|----------------1----|----------------1----|


  H        Q    Q         H        H           H        H           
---------------------||---------------------|---------------------||
---------------------||---------------------|---------------------||
---------------------||*--------------------|--------------------*||
---------------------||*--------------------|--------------------*||
----------------3----||------------3--------|-----------3---------||
----------------1----||------------1--------|-----------1---------||


  H        H           Q    Q    Q    Q       H        H         
--------------------|----------------------|--------------------|
--------------------|----------------------|--------------------|
--4-----------------|--4-------------------|--4-----------------|
--2-----------------|--2-------------------|--2-----------------|
-----------3--------|-------3----5----7----|-----------3--------|
-----------1--------|----------------------|-----------1--------|


  Q    Q    Q    Q       H        H           Q    Q    Q    Q     
----------------------|--------------------|----------------------|
----------------------|--------------------|----------------------|
--4-------------------|--4-----------------|--4-------------------|
--2-------------------|--2-----------------|--2-------------------|
-------3----5----7----|-----------3--------|-------3----5----7----|
----------------------|-----------1--------|----------------------|


  H        H           Q    Q    Q    Q     
--------------------|----------------------|
--------------------|----------------------|
--4-----------------|--4-------------------|
--2-----------------|--2-------------------|
-----------3--------|-------3----5----7----|
-----------1--------|----------------------|


     T  T  T  T T T T T T T T T T T T T T T T T  T  T  T  T  T  T  T  T  T  T  T
|-------------------------------------------------------------------------------
|-------------------------------------------------------------------------------
|*------------------------------------------------------------------------------
|*--12-12-12-12-9-9-9-9---------------------------------------------------------
|-----------------------8-8-8-8-------------------------------------------------
|-------------------------------7-7-7-7-8-8-8-8-10-10-10-10-10-10-10-10-12-12-12


   T  T  T  T T T T T T T T T T T T T T T T T  T  T  T  T  T  T  T  T  T  T  T 
--------------------------------------------------------------------------------
--------------------------------------------------------------------------------
--------------------------------------------------------------------------------
--12-12-12-12-9-9-9-9-----------------------------------------------------------
----------------------8-8-8-8---------------------------------------------------
------------------------------7-7-7-7-8-8-8-8-10-10-10-10-10-10-10-10-12-12-12-1


----||
----||
----||
----||
----||
----||






Code:
                            Under The Three Spheres                             


                                                                         Mithras
Leon Lead



       tr        tr        tr             
       Q         Q         Q         Q     
A#||--12(13)------------------------------|
F#||------------11(12)--------------------|
C#||----------------------12(13)----10----|
G#||--------------------------------------|
D#||--------------------------------------|
A#||--------------------------------------|


   tr        tr        tr        tr       
   Q         Q         Q         Q         
--12(13)------------------------14(15)----|
------------11(12)----12(13)--------------|
------------------------------------------|
------------------------------------------|
------------------------------------------|
------------------------------------------|


   tr        tr        tr             
   Q         Q         Q         Q     
--12(13)------------------------------|
------------11(12)--------------------|
----------------------12(13)----10----|
--------------------------------------|
--------------------------------------|
--------------------------------------|


   tr        tr        tr        tr       
   Q         Q         Q         Q         
--12(13)------------------------14(15)----|
------------11(12)----12(13)--------------|
------------------------------------------|
------------------------------------------|
------------------------------------------|
------------------------------------------|


     tr        tr        tr             
     Q         Q         Q         Q     
|---12(13)------------------------------|
|-------------11(12)--------------------|
|*----------------------12(13)----10----|
|*--------------------------------------|
|---------------------------------------|
|---------------------------------------|


   tr        tr        tr        tr         
   Q         Q         Q         Q           
--12(13)------------------------14(15)-----||
------------11(12)----12(13)---------------||
------------------------------------------*||
------------------------------------------*||
-------------------------------------------||
-------------------------------------------||


   tr        tr        tr             
   Q         Q         Q         Q     
--12(13)------------------------------|
------------11(12)--------------------|
----------------------12(13)----10----|
--------------------------------------|
--------------------------------------|
--------------------------------------|


   tr        tr        tr        tr       
   Q         Q         Q         Q         
--12(13)------------------------14(15)----|
------------11(12)----12(13)--------------|
------------------------------------------|
------------------------------------------|
------------------------------------------|
------------------------------------------|


   tr        tr        tr             
   Q         Q         Q         Q     
--12(13)------------------------------|
------------11(12)--------------------|
----------------------12(13)----10----|
--------------------------------------|
--------------------------------------|
--------------------------------------|


   tr        tr        tr        tr       
   Q         Q         Q         Q         
--12(13)------------------------14(15)----|
------------11(12)----12(13)--------------|
------------------------------------------|
------------------------------------------|
------------------------------------------|
------------------------------------------|


   tr        tr        tr             
   Q         Q         Q         Q     
--12(13)------------------------------|
------------11(12)--------------------|
----------------------12(13)----10----|
--------------------------------------|
--------------------------------------|
--------------------------------------|


   tr        tr        tr        tr       
   Q         Q         Q         Q         
--12(13)------------------------14(15)----|
------------11(12)----12(13)--------------|
------------------------------------------|
------------------------------------------|
------------------------------------------|
------------------------------------------|


   tr        tr        tr             
   Q         Q         Q         Q     
--12(13)------------------------------|
------------11(12)--------------------|
----------------------12(13)----10----|
--------------------------------------|
--------------------------------------|
--------------------------------------|


   tr        tr        tr        tr                                     
   Q         Q         Q         Q                           8x         
--12(13)------------------------14(15)----||--------|--------||-------||
------------11(12)----12(13)--------------||--------|--------||-------||
------------------------------------------||*-------|-------*||-------||
------------------------------------------||*-------|-------*||-------||
------------------------------------------||--------|--------||-------||
------------------------------------------||--------|--------||-------||


_________________
Faith in the heavens has shattered
Broken pieces fall from the sky
Your god is the epitome of my doings
No one is spared from the funeral inception
God forbid
God forbidden
Image


Last edited by darkreignofset on Wed Jul 15, 2009 12:28 am, edited 1 time in total.

Top
 Profile  
 
 Post subject: Re: THE TAB HAS LANDED PT1 - 'Worlds Beyond The Veil'
PostPosted: Wed Jul 15, 2009 12:22 am 
Offline
Lord Of The Condemned
User avatar

Joined: Mon Jan 14, 2008 3:22 am
Posts: 187
Location: Where dying suns descend
Thats what I gathered :?

_________________
Faith in the heavens has shattered
Broken pieces fall from the sky
Your god is the epitome of my doings
No one is spared from the funeral inception
God forbid
God forbidden
Image


Top
 Profile  
 
 Post subject: Re: THE TAB HAS LANDED PT1 - 'Worlds Beyond The Veil'
PostPosted: Fri Jul 17, 2009 10:41 pm 
Offline
Mithras Guitarist / Drummer
User avatar

Joined: Thu Mar 25, 2004 6:27 pm
Posts: 1533
Location: Exploring non-Euclidean geometries...
I'll have a gander at this with my guitar, some of it is right I'm sure!

_________________
Image
my arts were thought so mighty
yet humbled
for who
could know
the mysteries
of life itself


Top
 Profile  
 
 Post subject: Re: THE TAB HAS LANDED PT1 - 'Worlds Beyond The Veil'
PostPosted: Thu Aug 13, 2009 10:27 pm 
Offline
Lord Of The Condemned
User avatar

Joined: Mon Jan 14, 2008 3:22 am
Posts: 187
Location: Where dying suns descend
Leon wrote:
I'll have a gander at this with my guitar, some of it is right I'm sure!


Did ya have a gander yet leon? :mrgreen:

_________________
Faith in the heavens has shattered
Broken pieces fall from the sky
Your god is the epitome of my doings
No one is spared from the funeral inception
God forbid
God forbidden
Image


Top
 Profile  
 
Display posts from previous:  Sort by  
Forum locked This topic is locked, you cannot edit posts or make further replies.  [ 62 posts ]  Go to page Previous  1, 2, 3, 4, 5  Next

All times are UTC [ DST ]


Who is online

Users browsing this forum: No registered users and 1 guest


You cannot post new topics in this forum
You cannot reply to topics in this forum
You cannot edit your posts in this forum
You cannot delete your posts in this forum
You cannot post attachments in this forum

Search for:
Jump to:  
cron
Powered by phpBB © 2000, 2002, 2005, 2007 phpBB Group